  0
SECTION
  2
HEADER
  9
$ACADVER
  1
AC1015
  9
$ACADMAINTVER
 70
     6
  9
$DWGCODEPAGE
  3
ANSI_1254
  9
$INSBASE
 10
0.0
 20
0.0
 30
0.0
  9
$EXTMIN
 10
0.0
 20
0.0
 30
0.0
  9
$EXTMAX
 10
279.4
 20
215.9
 30
0.0
  9
$LIMMIN
 10
0.0
 20
0.0
  9
$LIMMAX
 10
279.4
 20
215.9
  9
$ORTHOMODE
 70
     0
  9
$REGENMODE
 70
     1
  9
$FILLMODE
 70
     1
  9
$QTEXTMODE
 70
     0
  9
$MIRRTEXT
 70
     1
  9
$LTSCALE
 40
1.0
  9
$ATTMODE
 70
     1
  9
$TEXTSIZE
 40
3.5
  9
$TRACEWID
 40
1.0
  9
$TEXTSTYLE
  7
Standard
  9
$CLAYER
  8
0
  9
$CELTYPE
  6
ByLayer
  9
$CECOLOR
 62
   256
  9
$CELTSCALE
 40
1.0
  9
$DISPSILH
 70
     0
  9
$DIMSCALE
 40
1.0
  9
$DIMASZ
 40
3.5
  9
$DIMEXO
 40
1.0
  9
$DIMDLI
 40
3.75
  9
$DIMRND
 40
0.0
  9
$DIMDLE
 40
0.0
  9
$DIMEXE
 40
1.0
  9
$DIMTP
 40
0.0
  9
$DIMTM
 40
0.0
  9
$DIMTXT
 40
3.5
  9
$DIMCEN
 40
2.5
  9
$DIMTSZ
 40
0.0
  9
$DIMTOL
 70
     0
  9
$DIMLIM
 70
     0
  9
$DIMTIH
 70
     1
  9
$DIMTOH
 70
     1
  9
$DIMSE1
 70
     0
  9
$DIMSE2
 70
     0
  9
$DIMTAD
 70
     1
  9
$DIMZIN
 70
     0
  9
$DIMBLK
  1

  9
$DIMASO
 70
     1
  9
$DIMSHO
 70
     1
  9
$DIMPOST
  1

  9
$DIMAPOST
  1

  9
$DIMALT
 70
     0
  9
$DIMALTD
 70
     3
  9
$DIMALTF
 40
0.0393700787
  9
$DIMLFAC
 40
1.0
  9
$DIMTOFL
 70
     1
  9
$DIMTVP
 40
0.0
  9
$DIMTIX
 70
     0
  9
$DIMSOXD
 70
     0
  9
$DIMSAH
 70
     0
  9
$DIMBLK1
  1

  9
$DIMBLK2
  1

  9
$DIMSTYLE
  2
ISO-25
  9
$DIMCLRD
 70
     0
  9
$DIMCLRE
 70
     0
  9
$DIMCLRT
 70
     0
  9
$DIMTFAC
 40
1.0
  9
$DIMGAP
 40
1.524
  9
$DIMJUST
 70
     0
  9
$DIMSD1
 70
     0
  9
$DIMSD2
 70
     0
  9
$DIMTOLJ
 70
     0
  9
$DIMTZIN
 70
     0
  9
$DIMALTZ
 70
     0
  9
$DIMALTTZ
 70
     0
  9
$DIMUPT
 70
     0
  9
$DIMDEC
 70
     2
  9
$DIMTDEC
 70
     2
  9
$DIMALTU
 70
     2
  9
$DIMALTTD
 70
     3
  9
$DIMTXSTY
  7
Standard
  9
$DIMAUNIT
 70
     0
  9
$DIMADEC
 70
     2
  9
$DIMALTRND
 40
0.0
  9
$DIMAZIN
 70
     0
  9
$DIMDSEP
 70
    44
  9
$DIMATFIT
 70
     3
  9
$DIMFRAC
 70
     0
  9
$DIMLDRBLK
  1

  9
$DIMLUNIT
 70
     2
  9
$DIMLWD
 70
    -2
  9
$DIMLWE
 70
    -2
  9
$DIMTMOVE
 70
     0
  9
$LUNITS
 70
     2
  9
$LUPREC
 70
     2
  9
$SKETCHINC
 40
1.0
  9
$FILLETRAD
 40
10.0
  9
$AUNITS
 70
     0
  9
$AUPREC
 70
     2
  9
$MENU
  1
.
  9
$ELEVATION
 40
0.0
  9
$PELEVATION
 40
0.0
  9
$THICKNESS
 40
0.0
  9
$LIMCHECK
 70
     0
  9
$CHAMFERA
 40
0.0
  9
$CHAMFERB
 40
0.0
  9
$CHAMFERC
 40
0.0
  9
$CHAMFERD
 40
0.0
  9
$SKPOLY
 70
     0
  9
$TDCREATE
 40
2459935.700611956
  9
$TDUCREATE
 40
2459935.575611956
  9
$TDUPDATE
 40
2459935.700612141
  9
$TDUUPDATE
 40
2459935.575612141
  9
$TDINDWG
 40
0.0000000116
  9
$TDUSRTIMER
 40
0.0000000116
  9
$USRTIMER
 70
     1
  9
$ANGBASE
 50
0.0
  9
$ANGDIR
 70
     0
  9
$PDMODE
 70
     0
  9
$PDSIZE
 40
-1.0
  9
$PLINEWID
 40
0.0
  9
$SPLFRAME
 70
     0
  9
$SPLINETYPE
 70
     6
  9
$SPLINESEGS
 70
     8
  9
$HANDSEED
  5
D2
  9
$SURFTAB1
 70
     6
  9
$SURFTAB2
 70
     6
  9
$SURFTYPE
 70
     6
  9
$SURFU
 70
     6
  9
$SURFV
 70
     6
  9
$UCSBASE
  2

  9
$UCSNAME
  2

  9
$UCSORG
 10
0.0
 20
0.0
 30
0.0
  9
$UCSXDIR
 10
1.0
 20
0.0
 30
0.0
  9
$UCSYDIR
 10
0.0
 20
1.0
 30
0.0
  9
$UCSORTHOREF
  2

  9
$UCSORTHOVIEW
 70
     0
  9
$UCSORGTOP
 10
0.0
 20
0.0
 30
0.0
  9
$UCSORGBOTTOM
 10
0.0
 20
0.0
 30
0.0
  9
$UCSORGLEFT
 10
0.0
 20
0.0
 30
0.0
  9
$UCSORGRIGHT
 10
0.0
 20
0.0
 30
0.0
  9
$UCSORGFRONT
 10
0.0
 20
0.0
 30
0.0
  9
$UCSORGBACK
 10
0.0
 20
0.0
 30
0.0
  9
$PUCSBASE
  2

  9
$PUCSNAME
  2

  9
$PUCSORG
 10
0.0
 20
0.0
 30
0.0
  9
$PUCSXDIR
 10
1.0
 20
0.0
 30
0.0
  9
$PUCSYDIR
 10
0.0
 20
1.0
 30
0.0
  9
$PUCSORTHOREF
  2

  9
$PUCSORTHOVIEW
 70
     0
  9
$PUCSORGTOP
 10
0.0
 20
0.0
 30
0.0
  9
$PUCSORGBOTTOM
 10
0.0
 20
0.0
 30
0.0
  9
$PUCSORGLEFT
 10
0.0
 20
0.0
 30
0.0
  9
$PUCSORGRIGHT
 10
0.0
 20
0.0
 30
0.0
  9
$PUCSORGFRONT
 10
0.0
 20
0.0
 30
0.0
  9
$PUCSORGBACK
 10
0.0
 20
0.0
 30
0.0
  9
$USERI1
 70
     0
  9
$USERI2
 70
     0
  9
$USERI3
 70
     0
  9
$USERI4
 70
     0
  9
$USERI5
 70
     0
  9
$USERR1
 40
0.0
  9
$USERR2
 40
0.0
  9
$USERR3
 40
0.0
  9
$USERR4
 40
0.0
  9
$USERR5
 40
0.0
  9
$WORLDVIEW
 70
     1
  9
$SHADEDGE
 70
     3
  9
$SHADEDIF
 70
    70
  9
$TILEMODE
 70
     1
  9
$MAXACTVP
 70
    64
  9
$PINSBASE
 10
0.0
 20
0.0
 30
0.0
  9
$PLIMCHECK
 70
     0
  9
$PEXTMIN
 10
1.0000000000E+20
 20
1.0000000000E+20
 30
1.0000000000E+20
  9
$PEXTMAX
 10
-1.0000000000E+20
 20
-1.0000000000E+20
 30
-1.0000000000E+20
  9
$PLIMMIN
 10
0.0
 20
0.0
  9
$PLIMMAX
 10
420.0
 20
297.0
  9
$UNITMODE
 70
     0
  9
$VISRETAIN
 70
     1
  9
$PLINEGEN
 70
     0
  9
$PSLTSCALE
 70
     1
  9
$TREEDEPTH
 70
  3020
  9
$CMLSTYLE
  2
Standard
  9
$CMLJUST
 70
     0
  9
$CMLSCALE
 40
20.0
  9
$PROXYGRAPHICS
 70
     1
  9
$MEASUREMENT
 70
     1
  9
$CELWEIGHT
370
    -1
  9
$ENDCAPS
280
     0
  9
$JOINSTYLE
280
     0
  9
$LWDISPLAY
290
     1
  9
$INSUNITS
 70
     4
  9
$HYPERLINKBASE
  1

  9
$STYLESHEET
  1

  9
$XEDIT
290
     1
  9
$CEPSNTYPE
380
     0
  9
$PSTYLEMODE
290
     1
  9
$FINGERPRINTGUID
  2
{ca37738b-6ceb-461a-9f93-2bbefbeb20d0}
  9
$VERSIONGUID
  2
{FAEB1C32-E019-11D5-929B-00C0DF256EC4}
  9
$EXTNAMES
290
     1
  9
$PSVPSCALE
 40
0.0
  9
$OLESTARTUP
290
     0
  0
ENDSEC
  0
SECTION
  2
CLASSES
  0
CLASS
  1
ACDBDICTIONARYWDFLT
  2
AcDbDictionaryWithDefault
  3
ObjectDBX Classes
 90
        0
280
     0
281
     0
  0
CLASS
  1
VISUALSTYLE
  2
AcDbVisualStyle
  3
ObjectDBX Classes
 90
     4095
280
     0
281
     0
  0
CLASS
  1
MATERIAL
  2
AcDbMaterial
  3
ObjectDBX Classes
 90
     1153
280
     0
281
     0
  0
CLASS
  1
SCALE
  2
AcDbScale
  3
ObjectDBX Classes
 90
     1153
280
     0
281
     0
  0
CLASS
  1
TABLESTYLE
  2
AcDbTableStyle
  3
ObjectDBX Classes
 90
     4095
280
     0
281
     0
  0
CLASS
  1
MLEADERSTYLE
  2
AcDbMLeaderStyle
  3
ACDB_MLEADERSTYLE_CLASS
 90
     4095
280
     0
281
     0
  0
CLASS
  1
SUN
  2
AcDbSun
  3
SCENEOE
 90
     1153
280
     0
281
     0
  0
CLASS
  1
ACDBPLACEHOLDER
  2
AcDbPlaceHolder
  3
ObjectDBX Classes
 90
        0
280
     0
281
     0
  0
CLASS
  1
LAYOUT
  2
AcDbLayout
  3
ObjectDBX Classes
 90
        0
280
     0
281
     0
  0
ENDSEC
  0
SECTION
  2
TABLES
  0
TABLE
  2
VPORT
  5
8
330
0
100
AcDbSymbolTable
 70
     1
  0
VPORT
  5
29
330
8
100
AcDbSymbolTableRecord
100
AcDbViewportTableRecord
  2
*Active
 70
     0
 10
0.0
 20
0.0
 11
1.0
 21
1.0
 12
139.7
 22
107.95
 13
0.0
 23
0.0
 14
10.0
 24
10.0
 15
10.0
 25
10.0
 16
0.0
 26
0.0
 36
1.0
 17
0.0
 27
0.0
 37
0.0
 40
215.9
 41
1.2941176471
 42
50.0
 43
0.0
 44
0.0
 50
0.0
 51
0.0
 71
     0
 72
  2000
 73
     1
 74
     3
 75
     0
 76
     0
 77
     0
 78
     0
281
     0
 65
     1
110
0.0
120
0.0
130
0.0
111
1.0
121
0.0
131
0.0
112
0.0
122
1.0
132
0.0
 79
     0
146
0.0
  0
ENDTAB
  0
TABLE
  2
LTYPE
  5
5
330
0
100
AcDbSymbolTable
 70
     6
  0
LTYPE
  5
14
330
5
100
AcDbSymbolTableRecord
100
AcDbLinetypeTableRecord
  2
ByBlock
 70
     0
  3

 72
    65
 73
     0
 40
0.0
  0
LTYPE
  5
15
330
5
100
AcDbSymbolTableRecord
100
AcDbLinetypeTableRecord
  2
ByLayer
 70
     0
  3

 72
    65
 73
     0
 40
0.0
  0
LTYPE
  5
16
330
5
100
AcDbSymbolTableRecord
100
AcDbLinetypeTableRecord
  2
Continuous
 70
     0
  3
Solid line
 72
    65
 73
     0
 40
0.0
  0
LTYPE
  5
6E
330
5
100
AcDbSymbolTableRecord
100
AcDbLinetypeTableRecord
  2
HIDDEN
 70
     0
  3
Hidden __ __ __ __ __ __ __ __ __ __ __ __ __ __
 72
    65
 73
     2
 40
1.905
 49
1.27
 74
     0
 49
-0.635
 74
     0
  0
LTYPE
  5
6F
330
5
100
AcDbSymbolTableRecord
100
AcDbLinetypeTableRecord
  2
PHANTOM
 70
     0
  3
Phantom ______  __  __  ______  __  __  ______
 72
    65
 73
     6
 40
12.7
 49
6.35
 74
     0
 49
-1.27
 74
     0
 49
1.27
 74
     0
 49
-1.27
 74
     0
 49
1.27
 74
     0
 49
-1.27
 74
     0
  0
LTYPE
  5
70
330
5
100
AcDbSymbolTableRecord
100
AcDbLinetypeTableRecord
  2
CENTER
 70
     0
  3
Center ____ _ ____ _ ____ _ ____ _ ____ _ ____
 72
    65
 73
     4
 40
10.16
 49
6.35
 74
     0
 49
-1.27
 74
     0
 49
1.27
 74
     0
 49
-1.27
 74
     0
  0
LTYPE
  5
71
330
5
100
AcDbSymbolTableRecord
100
AcDbLinetypeTableRecord
  2
CENTERX2
 70
     0
  3
Center (2x) ________  __  ________  __  _____
 72
    65
 73
     4
 40
20.32
 49
12.7
 74
     0
 49
-2.54
 74
     0
 49
2.54
 74
     0
 49
-2.54
 74
     0
  0
LTYPE
  5
72
330
5
100
AcDbSymbolTableRecord
100
AcDbLinetypeTableRecord
  2
DOT2
 70
     0
  3
Dot (.5x) ........................................
 72
    65
 73
     2
 40
0.635
 49
0.0
 74
     0
 49
-0.635
 74
     0
  0
ENDTAB
  0
TABLE
  2
LAYER
  5
2
330
0
100
AcDbSymbolTable
 70
    17
  0
LAYER
  5
10
330
2
100
AcDbSymbolTableRecord
100
AcDbLayerTableRecord
  2
0
 70
     0
 62
     7
  6
Continuous
370
    -3
390
F
  0
LAYER
  5
73
330
2
100
AcDbSymbolTableRecord
100
AcDbLayerTableRecord
  2
FORMAT
 70
     0
 62
     7
  6
Continuous
370
    -3
390
F
  0
LAYER
  5
74
330
2
100
AcDbSymbolTableRecord
100
AcDbLayerTableRecord
  2
YARDIMCI_GEOMETRI
 70
     0
 62
    -6
  6
Continuous
290
     0
370
    -3
390
F
  0
LAYER
  5
75
330
2
100
AcDbSymbolTableRecord
100
AcDbLayerTableRecord
  2
SAYFA_CERCEVESI
 70
     0
 62
     7
  6
Continuous
370
    25
390
F
  0
LAYER
  5
76
330
2
100
AcDbSymbolTableRecord
100
AcDbLayerTableRecord
  2
ANTET
 70
     0
 62
     7
  6
Continuous
370
    -3
390
F
  0
LAYER
  5
77
330
2
100
AcDbSymbolTableRecord
100
AcDbLayerTableRecord
  2
OLCU
 70
     0
 62
   150
  6
Continuous
370
    -3
390
F
  0
LAYER
  5
78
330
2
100
AcDbSymbolTableRecord
100
AcDbLayerTableRecord
  2
METIN
 70
     0
 62
    96
  6
Continuous
370
    -3
390
F
  0
LAYER
  5
79
330
2
100
AcDbSymbolTableRecord
100
AcDbLayerTableRecord
  2
BALON
 70
     0
 62
     5
  6
Continuous
370
    -3
390
F
  0
LAYER
  5
7A
330
2
100
AcDbSymbolTableRecord
100
AcDbLayerTableRecord
  2
VURGU
 70
     0
 62
     7
  6
Continuous
370
    -3
390
F
  0
LAYER
  5
7B
330
2
100
AcDbSymbolTableRecord
100
AcDbLayerTableRecord
  2
SILIK
 70
     0
 62
     7
  6
Continuous
370
    -3
390
F
  0
LAYER
  5
7C
330
2
100
AcDbSymbolTableRecord
100
AcDbLayerTableRecord
  2
MODEL
 70
     0
 62
     7
  6
Continuous
370
    -3
390
F
  0
LAYER
  5
7D
330
2
100
AcDbSymbolTableRecord
100
AcDbLayerTableRecord
  2
DETAYLANDıRMA
 70
     0
 62
   190
  6
Continuous
370
    -3
390
F
  0
LAYER
  5
7E
330
2
100
AcDbSymbolTableRecord
100
AcDbLayerTableRecord
  2
TOLERANS
 70
     0
 62
   230
  6
Continuous
370
    -3
390
F
  0
LAYER
  5
7F
330
2
100
AcDbSymbolTableRecord
100
AcDbLayerTableRecord
  2
MERKEZ_CIZGILERI
 70
     0
 62
    30
  6
Continuous
370
    -3
390
F
  0
LAYER
  5
80
330
2
100
AcDbSymbolTableRecord
100
AcDbLayerTableRecord
  2
KESIT-DETAY_CIZGILERI
 70
     0
 62
     7
  6
Continuous
370
    -3
390
F
  0
LAYER
  5
81
330
2
100
AcDbSymbolTableRecord
100
AcDbLayerTableRecord
  2
\U+041E\U+0421\U+0415\U+0412\U+042B\U+0415
 70
     0
 62
     7
  6
Continuous
370
    -3
390
F
  0
LAYER
  5
82
330
2
100
AcDbSymbolTableRecord
100
AcDbLayerTableRecord
  2
\U+0412\U+041E\U+0414\U+042F\U+041D\U+042B\U+0415_\U+0417\U+041D\U+0410\U+041A\U+0418
 70
     0
 62
    11
  6
Continuous
370
    -3
390
F
  0
ENDTAB
  0
TABLE
  2
STYLE
  5
3
330
0
100
AcDbSymbolTable
 70
     1
  0
STYLE
  5
11
330
3
100
AcDbSymbolTableRecord
100
AcDbTextStyleTableRecord
  2
Standard
 70
     0
 40
0.0
 41
1.0
 50
0.0
 71
     0
 42
3.5
  3
txt
  4

  0
ENDTAB
  0
TABLE
  2
VIEW
  5
6
330
0
100
AcDbSymbolTable
 70
     0
  0
ENDTAB
  0
TABLE
  2
UCS
  5
7
330
0
100
AcDbSymbolTable
 70
     0
  0
ENDTAB
  0
TABLE
  2
APPID
  5
9
330
0
100
AcDbSymbolTable
 70
     1
  0
APPID
  5
12
330
9
100
AcDbSymbolTableRecord
100
AcDbRegAppTableRecord
  2
ACAD
 70
     0
  0
ENDTAB
  0
TABLE
  2
DIMSTYLE
  5
A
330
0
100
AcDbSymbolTable
 70
     1
100
AcDbDimStyleTable
  0
DIMSTYLE
105
27
330
A
100
AcDbSymbolTableRecord
100
AcDbDimStyleTableRecord
  2
ISO-25
 70
     0
 41
2.5
 42
0.625
 43
3.75
 44
1.25
 73
     0
 74
     0
 77
     1
 78
     8
140
2.5
141
2.5
143
0.0393700787
147
0.625
171
     3
172
     1
178
     0
271
     2
272
     2
274
     3
278
    44
283
     0
284
     8
340
11
  0
ENDTAB
  0
TABLE
  2
BLOCK_RECORD
  5
1
330
0
100
AcDbSymbolTable
 70
     3
  0
BLOCK_RECORD
  5
1F
330
1
100
AcDbSymbolTableRecord
100
AcDbBlockTableRecord
  2
*Model_Space
340
22
  0
BLOCK_RECORD
  5
1B
330
1
100
AcDbSymbolTableRecord
100
AcDbBlockTableRecord
  2
*Paper_Space
340
1E
  0
BLOCK_RECORD
  5
23
330
1
100
AcDbSymbolTableRecord
100
AcDbBlockTableRecord
  2
*Paper_Space0
340
26
  0
BLOCK_RECORD
  5
88
330
1
100
AcDbSymbolTableRecord
100
AcDbBlockTableRecord
  2
SW_CENTERMARKSYMBOL_0
340
0
102
{BLKREFS
331
93
102
}
  0
BLOCK_RECORD
  5
BB
330
1
100
AcDbSymbolTableRecord
100
AcDbBlockTableRecord
  2
SW_CENTERMARKSYMBOL_1
340
0
102
{BLKREFS
331
C6
102
}
  0
ENDTAB
  0
ENDSEC
  0
SECTION
  2
BLOCKS
  0
BLOCK
  5
20
330
1F
100
AcDbEntity
  8
0
100
AcDbBlockBegin
  2
*Model_Space
 70
     0
 10
0.0
 20
0.0
 30
0.0
  3
*Model_Space
  1

  0
ENDBLK
  5
21
330
1F
100
AcDbEntity
  8
0
100
AcDbBlockEnd
  0
BLOCK
  5
1C
330
1B
100
AcDbEntity
 67
     1
  8
0
100
AcDbBlockBegin
  2
*Paper_Space
 70
     0
 10
0.0
 20
0.0
 30
0.0
  3
*Paper_Space
  1

  0
ENDBLK
  5
1D
330
1B
100
AcDbEntity
 67
     1
  8
0
100
AcDbBlockEnd
  0
BLOCK
  5
24
330
23
100
AcDbEntity
  8
0
100
AcDbBlockBegin
  2
*Paper_Space0
 70
     0
 10
0.0
 20
0.0
 30
0.0
  3
*Paper_Space0
  1

  0
ENDBLK
  5
25
330
23
100
AcDbEntity
  8
0
100
AcDbBlockEnd
  0
BLOCK
  5
89
330
88
100
AcDbEntity
  8
0
100
AcDbBlockBegin
  2
SW_CENTERMARKSYMBOL_0
 70
     0
 10
0.0
 20
0.0
 30
0.0
  3
SW_CENTERMARKSYMBOL_0
  1

  0
LINE
  5
8B
330
88
100
AcDbEntity
  8
FORMAT
 62
     0
100
AcDbLine
 10
0.0
 20
0.0
 30
0.0
 11
0.0
 21
2.5
 31
0.0
  0
LINE
  5
8C
330
88
100
AcDbEntity
  8
FORMAT
 62
     0
100
AcDbLine
 10
0.0
 20
0.0
 30
0.0
 11
-2.5
 21
0.0
 31
0.0
  0
LINE
  5
8D
330
88
100
AcDbEntity
  8
FORMAT
 62
     0
100
AcDbLine
 10
0.0
 20
0.0
 30
0.0
 11
0.0
 21
-2.5
 31
0.0
  0
LINE
  5
8E
330
88
100
AcDbEntity
  8
FORMAT
 62
     0
100
AcDbLine
 10
0.0
 20
0.0
 30
0.0
 11
2.5
 21
0.0
 31
0.0
  0
LINE
  5
8F
330
88
100
AcDbEntity
  8
FORMAT
 62
     0
100
AcDbLine
 10
0.0
 20
5.0
 30
0.0
 11
0.0
 21
202.5
 31
0.0
  0
LINE
  5
90
330
88
100
AcDbEntity
  8
FORMAT
 62
     0
100
AcDbLine
 10
-5.0
 20
0.0
 30
0.0
 11
-202.5
 21
0.0
 31
0.0
  0
LINE
  5
91
330
88
100
AcDbEntity
  8
FORMAT
 62
     0
100
AcDbLine
 10
0.0
 20
-5.0
 30
0.0
 11
0.0
 21
-202.5
 31
0.0
  0
LINE
  5
92
330
88
100
AcDbEntity
  8
FORMAT
 62
     0
100
AcDbLine
 10
5.0
 20
0.0
 30
0.0
 11
202.5
 21
0.0
 31
0.0
  0
ENDBLK
  5
8A
330
88
100
AcDbEntity
  8
0
100
AcDbBlockEnd
  0
BLOCK
  5
BC
330
BB
100
AcDbEntity
  8
0
100
AcDbBlockBegin
  2
SW_CENTERMARKSYMBOL_1
 70
     0
 10
0.0
 20
0.0
 30
0.0
  3
SW_CENTERMARKSYMBOL_1
  1

  0
LINE
  5
BE
330
BB
100
AcDbEntity
  8
FORMAT
 62
     0
100
AcDbLine
 10
0.0
 20
0.0
 30
0.0
 11
0.0
 21
2.5
 31
0.0
  0
LINE
  5
BF
330
BB
100
AcDbEntity
  8
FORMAT
 62
     0
100
AcDbLine
 10
0.0
 20
0.0
 30
0.0
 11
-2.5
 21
0.0
 31
0.0
  0
LINE
  5
C0
330
BB
100
AcDbEntity
  8
FORMAT
 62
     0
100
AcDbLine
 10
0.0
 20
0.0
 30
0.0
 11
0.0
 21
-2.5
 31
0.0
  0
LINE
  5
C1
330
BB
100
AcDbEntity
  8
FORMAT
 62
     0
100
AcDbLine
 10
0.0
 20
0.0
 30
0.0
 11
2.5
 21
0.0
 31
0.0
  0
LINE
  5
C2
330
BB
100
AcDbEntity
  8
FORMAT
 62
     0
100
AcDbLine
 10
0.0
 20
5.0
 30
0.0
 11
0.0
 21
202.5
 31
0.0
  0
LINE
  5
C3
330
BB
100
AcDbEntity
  8
FORMAT
 62
     0
100
AcDbLine
 10
-5.0
 20
0.0
 30
0.0
 11
-202.5
 21
0.0
 31
0.0
  0
LINE
  5
C4
330
BB
100
AcDbEntity
  8
FORMAT
 62
     0
100
AcDbLine
 10
0.0
 20
-5.0
 30
0.0
 11
0.0
 21
-202.5
 31
0.0
  0
LINE
  5
C5
330
BB
100
AcDbEntity
  8
FORMAT
 62
     0
100
AcDbLine
 10
5.0
 20
0.0
 30
0.0
 11
202.5
 21
0.0
 31
0.0
  0
ENDBLK
  5
BD
330
BB
100
AcDbEntity
  8
0
100
AcDbBlockEnd
  0
ENDSEC
  0
SECTION
  2
ENTITIES
  0
LINE
  5
83
330
1F
100
AcDbEntity
  8
0
  6
Continuous
 62
     7
370
    25
100
AcDbLine
 10
-7.3585964356
 20
-93.5517129356
 30
0.0
 11
431.6414035644
 21
-93.5517129356
 31
0.0
  0
LINE
  5
84
330
1F
100
AcDbEntity
  8
0
  6
Continuous
 62
     7
370
    25
100
AcDbLine
 10
431.6414035644
 20
306.4482870644
 30
0.0
 11
-7.3585964356
 21
306.4482870644
 31
0.0
  0
CIRCLE
  5
85
330
1F
100
AcDbEntity
  8
0
  6
Continuous
 62
     7
370
    25
100
AcDbCircle
 10
-7.3585964356
 20
106.4482870644
 30
0.0
 40
176.3
  0
CIRCLE
  5
86
330
1F
100
AcDbEntity
  8
0
  6
Continuous
 62
     7
370
    25
100
AcDbCircle
 10
-7.3585964356
 20
106.4482870644
 30
0.0
 40
200.0
  0
LINE
  5
87
330
1F
100
AcDbEntity
  8
0
  6
Continuous
 62
     7
370
    25
100
AcDbLine
 10
431.6414035644
 20
306.4482870644
 30
0.0
 11
431.6414035644
 21
-93.5517129356
 31
0.0
  0
INSERT
  5
93
330
1F
100
AcDbEntity
  8
FORMAT
100
AcDbBlockReference
  2
SW_CENTERMARKSYMBOL_0
 10
-7.3585964356
 20
106.4482870644
 30
0.0
  0
LINE
  5
94
330
1F
100
AcDbEntity
  8
0
  6
Continuous
 62
     7
370
    25
100
AcDbLine
 10
192.6414035644
 20
1114.3275235571
 30
0.0
 11
192.6414035644
 21
1352.8275235571
 31
0.0
  0
LINE
  5
95
330
1F
100
AcDbEntity
  8
0
  6
Continuous
 62
     7
370
    25
100
AcDbLine
 10
192.6414035644
 20
475.8275235571
 30
0.0
 11
192.6414035644
 21
714.3275235571
 31
0.0
  0
LINE
  5
96
330
1F
100
AcDbEntity
  8
0
  6
Continuous
 62
     7
370
    25
100
AcDbLine
 10
-207.3585964356
 20
1352.8275235571
 30
0.0
 11
-207.3585964356
 21
475.8275235571
 31
0.0
  0
LINE
  5
97
330
1F
100
AcDbEntity
  8
0
  6
Continuous
 62
     7
370
    25
100
AcDbLine
 10
192.6414035644
 20
714.3275235571
 30
0.0
 11
431.6414035644
 21
714.3275235571
 31
0.0
  0
LINE
  5
98
330
1F
100
AcDbEntity
  8
0
  6
Continuous
 62
     7
370
    25
100
AcDbLine
 10
431.6414035644
 20
1114.3275235571
 30
0.0
 11
192.6414035644
 21
1114.3275235571
 31
0.0
  0
LINE
  5
99
330
1F
100
AcDbEntity
  8
0
  6
Continuous
 62
     7
370
    25
100
AcDbLine
 10
192.6414035644
 20
1114.3275235571
 30
0.0
 11
-7.3585964356
 21
914.3275235571
 31
0.0
  0
LINE
  5
9A
330
1F
100
AcDbEntity
  8
0
  6
Continuous
 62
     7
370
    25
100
AcDbLine
 10
-7.3585964356
 20
914.3275235571
 30
0.0
 11
192.6414035644
 21
714.3275235571
 31
0.0
  0
LINE
  5
9B
330
1F
100
AcDbEntity
  8
0
  6
Continuous
 62
     7
370
    25
100
AcDbLine
 10
-207.3585964356
 20
1352.8275235571
 30
0.0
 11
192.6414035644
 21
1352.8275235571
 31
0.0
  0
LINE
  5
9C
330
1F
100
AcDbEntity
  8
0
  6
Continuous
 62
     7
370
    25
100
AcDbLine
 10
-207.3585964356
 20
475.8275235571
 30
0.0
 11
192.6414035644
 21
475.8275235571
 31
0.0
  0
LINE
  5
9D
330
1F
100
AcDbEntity
  8
0
  6
Continuous
 62
     7
370
    25
100
AcDbLine
 10
431.6414035644
 20
1114.3275235571
 30
0.0
 11
431.6414035644
 21
714.3275235571
 31
0.0
  0
LINE
  5
9E
330
1F
100
AcDbEntity
  8
0
  6
Continuous
 62
     7
370
    25
100
AcDbLine
 10
1103.3616941471
 20
-93.5517129356
 30
0.0
 11
1541.8616941471
 21
-93.5517129356
 31
0.0
  0
LINE
  5
9F
330
1F
100
AcDbEntity
  8
0
  6
Continuous
 62
     7
370
    25
100
AcDbLine
 10
664.8616941471
 20
-93.5517129356
 30
0.0
 11
1103.3616941471
 21
-93.5517129356
 31
0.0
  0
LINE
  5
A0
330
1F
100
AcDbEntity
  8
0
  6
Continuous
 62
     7
370
    25
100
AcDbLine
 10
1103.3616941471
 20
306.4482870644
 30
0.0
 11
664.8616941471
 21
306.4482870644
 31
0.0
  0
LINE
  5
A1
330
1F
100
AcDbEntity
  8
0
  6
Continuous
 62
     7
370
    25
100
AcDbLine
 10
1541.8616941471
 20
306.4482870644
 30
0.0
 11
1103.3616941471
 21
306.4482870644
 31
0.0
  0
LINE
  5
A2
330
1F
100
AcDbEntity
  8
0
  6
Continuous
 62
     7
370
    25
100
AcDbLine
 10
1541.8616941471
 20
306.4482870644
 30
0.0
 11
1541.8616941471
 21
-93.5517129356
 31
0.0
  0
LINE
  5
A3
330
1F
100
AcDbEntity
  8
0
  6
Continuous
 62
     7
370
    25
100
AcDbLine
 10
664.8616941471
 20
306.4482870644
 30
0.0
 11
664.8616941471
 21
-93.5517129356
 31
0.0
  0
LINE
  5
A4
330
1F
100
AcDbEntity
  8
0
  6
Continuous
 62
     7
370
    25
100
AcDbLine
 10
1255.2773603645
 20
-819.2485146983
 30
0.0
 11
1465.7053640418
 21
-697.7710138967
 31
0.0
  0
LINE
  5
A5
330
1F
100
AcDbEntity
  8
0
  6
Continuous
 62
     7
370
    25
100
AcDbLine
 10
1265.7216175145
 20
-351.3514689445
 30
0.0
 11
1055.2936138372
 21
-472.8289697461
 31
0.0
  0
LINE
  5
A6
330
1F
100
AcDbEntity
  8
0
  6
Continuous
 62
     7
370
    25
100
AcDbLine
 10
1055.2936138372
 20
-472.8289697461
 30
0.0
 11
845.2191635506
 21
-351.5555709724
 31
0.0
  0
LINE
  5
A7
330
1F
100
AcDbEntity
  8
0
  6
Continuous
 62
     7
370
    25
100
AcDbLine
 10
1465.3518106512
 20
-709.5505280067
 30
0.0
 11
1455.3261234248
 21
-703.7628219657
 31
0.0
  0
LINE
  5
A8
330
1F
100
AcDbEntity
  8
0
  6
Continuous
 62
     7
370
    25
100
AcDbLine
 10
645.2354170233
 20
-697.9751159247
 30
0.0
 11
1265.3680641239
 21
-1055.970072959
 31
0.0
  0
LWPOLYLINE
  5
A9
330
1F
100
AcDbEntity
  8
0
  6
Continuous
 62
     7
370
    25
100
AcDbPolyline
 90
      142
 70
   128
 43
0.0
 10
1490.3764163013
 20
-596.5276164778
 10
1490.2526629517
 20
-590.0433821757
 10
1489.8816486036
 20
-583.4291391445
 10
1489.2641098717
 20
-576.6980193514
 10
1488.401272822
 20
-569.8633868118
 10
1487.2948505375
 20
-562.9388110558
 10
1485.9470397174
 20
-555.9380401877
 10
1484.3605163151
 20
-548.8749735901
 10
1482.5384302262
 20
-541.7636343278
 10
1480.4843990338
 20
-534.6181413067
 10
1478.2025008268
 20
-527.4526812419
 10
1475.6972661028
 20
-520.2814804908
 10
1472.9736687735
 20
-513.118776809
 10
1470.0371162892
 20
-505.9787910815
 10
1466.8934389032
 20
-498.8756990891
 10
1463.5488780958
 20
-491.8236033634
 10
1460.0100741829
 20
-484.8365051877
 10
1456.2840531323
 20
-477.9282767987
 10
1452.3782126136
 20
-471.1126338444
 10
1448.3003073119
 20
-464.403108153
 10
1444.0584335305
 20
-457.8130208668
 10
1439.6610131172
 20
-451.3554559939
 10
1435.1167767432
 20
-445.0432344317
 10
1430.4347465693
 20
-438.8888885119
 10
1425.6242183328
 20
-432.9046371186
 10
1420.6947428924
 20
-427.1023614289
 10
1415.6561072652
 20
-421.4935813243
 10
1410.5183151958
 20
-416.0894325184
 10
1405.291567295
 20
-410.9006444484
 10
1399.9862407867
 20
-405.9375189728
 10
1394.6128689057
 20
-401.2099099178
 10
1389.1821199845
 20
-396.7272035136
 10
1383.7047762724
 20
-392.4982997587
 10
1378.1917125283
 20
-388.5315947502
 10
1372.6538744299
 20
-384.8349640136
 10
1367.1022568422
 20
-381.4157468672
 10
1361.5478819881
 20
-378.28073185
 10
1356.0017775646
 20
-375.4361432442
 10
1350.4749548487
 20
-372.8876287171
 10
1344.9783868354
 20
-370.6402481085
 10
1339.5229864517
 20
-368.6984633845
 10
1334.1195848899
 20
-367.066129779
 10
1328.7789101039
 20
-365.7464881392
 10
1323.5115655089
 20
-364.7421584914
 10
1318.3280089302
 20
-364.0551348392
 10
1313.2385318394
 20
-363.6867812045
 10
1308.2532389223
 20
-363.6378289193
 10
1303.3820280165
 20
-363.9083751738
 10
1298.6345704604
 20
-364.4978828236
 10
1294.0202918914
 20
-365.4051814556
 10
1289.5483535326
 20
-366.6284697126
 10
1285.2276340036
 20
-368.1653188688
 10
1281.0667116931
 20
-370.0126776525
 10
1277.0738477271
 20
-372.1668783039
 10
1273.2569695676
 20
-374.623643857
 10
1269.6236552728
 20
-377.3780966312
 10
1266.1811184519
 20
-380.4247679154
 10
1262.936193943
 20
-383.7576088259
 10
1259.8953242436
 20
-387.3700023155
 10
1257.0645467187
 20
-391.2547763113
 10
1254.4494816153
 20
-395.4042179541
 10
1252.055320903
 20
-399.8100889117
 10
1249.8868179663
 20
-404.4636417351
 10
1247.948278167
 20
-409.3556372258
 10
1246.2435502965
 20
-414.4763627798
 10
1244.7760189341
 20
-419.8156516704
 10
1243.5485977276
 20
-425.3629032337
 10
1242.5637236081
 20
-431.1071039153
 10
1241.8233519521
 20
-437.0368491363
 10
1241.3289526988
 20
-443.1403659366
 10
1241.0815074324
 20
-449.4055363485
 10
1241.0815074324
 20
-455.819921456
 10
1241.3289526988
 20
-462.3707860914
 10
1241.8233519521
 20
-469.0451241192
 10
1242.5637236081
 20
-475.829684259
 10
1243.5485977276
 20
-482.7109963948
 10
1244.7760189341
 20
-489.6753983183
 10
1246.2435502965
 20
-496.709062854
 10
1247.948278167
 20
-503.7980253122
 10
1249.8868179663
 20
-510.928211214
 10
1252.055320903
 20
-518.0854642354
 10
1254.4494816153
 20
-525.255574313
 10
1257.0645467187
 20
-532.4243058568
 10
1259.8953242436
 20
-539.5774260141
 10
1262.936193943
 20
-546.7007329268
 10
1266.1811184519
 20
-553.7800839284
 10
1269.6236552728
 20
-560.8014236229
 10
1273.2569695676
 20
-567.7508117902
 10
1277.0738477271
 20
-574.6144510633
 10
1281.0667116931
 20
-581.3787143218
 10
1285.2276340036
 20
-588.0301717471
 10
1289.5483535326
 20
-594.5556174863
 10
1294.0202918914
 20
-600.9420958707
 10
1298.6345704604
 20
-607.1769271388
 10
1303.3820280166
 20
-613.2477326102
 10
1308.2532389223
 20
-619.1424592625
 10
1313.2385318394
 20
-624.8494036617
 10
1318.3280089302
 20
-630.3572351978
 10
1323.5115655089
 20
-635.6550185813
 10
1328.7789101039
 20
-640.7322355535
 10
1334.1195848899
 20
-645.5788057701
 10
1339.5229864517
 20
-650.1851068147
 10
1344.9783868354
 20
-654.5419933028
 10
1350.4749548487
 20
-658.6408150397
 10
1356.0017775646
 20
-662.4734341941
 10
1361.5478819881
 20
-666.0322414555
 10
1367.1022568422
 20
-669.3101711415
 10
1372.6538744299
 20
-672.3007152262
 10
1378.1917125283
 20
-674.9979362611
 10
1383.7047762724
 20
-677.3964791634
 10
1389.1821199845
 20
-679.4915818483
 10
1394.6128689057
 20
-681.2790846833
 10
1399.9862407867
 20
-682.755438747
 10
1405.291567295
 20
-683.9177128751
 10
1410.5183151958
 20
-684.7635994798
 10
1415.6561072652
 20
-685.2914191316
 10
1420.6947428924
 20
-685.5001238935
 10
1425.6242183328
 20
-685.3892994015
 10
1430.4347465693
 20
-684.9591656872
 10
1435.1167767432
 20
-684.2105767415
 10
1439.6610131172
 20
-683.1450188184
 10
1444.0584335305
 20
-681.7646074844
 10
1448.3003073119
 20
-680.0720834185
 10
1452.3782126136
 20
-678.0708069707
 10
1456.2840531323
 20
-675.7647514899
 10
1460.0100741829
 20
-673.158495436
 10
1463.5488780958
 20
-670.2572132891
 10
1466.8934389032
 20
-667.0666652762
 10
1470.0371162892
 20
-663.5931859352
 10
1472.9736687735
 20
-659.8436715378
 10
1475.6972661028
 20
-655.8255663978
 10
1478.2025008268
 20
-651.5468480909
 10
1480.4843990338
 20
-647.0160116163
 10
1482.5384302262
 20
-642.2420525304
 10
1484.3605163151
 20
-637.2344490871
 10
1485.9470397174
 20
-632.0031434196
 10
1487.2948505375
 20
-626.5585218009
 10
1488.401272822
 20
-620.9113940233
 10
1489.2641098717
 20
-615.0729719363
 10
1489.8816486036
 20
-609.0548471866
 10
1490.2526629517
 20
-602.8689682037
 10
1490.3764163013
 20
-596.5276164778
  0
LWPOLYLINE
  5
AA
330
1F
100
AcDbEntity
  8
0
  6
Continuous
 62
     7
370
    25
100
AcDbPolyline
 90
      151
 70
   128
 43
0.0
 10
1507.1348470155
 20
-606.2020526029
 10
1507.0107964584
 20
-599.2918036817
 10
1506.638862414
 20
-592.2504519608
 10
1506.019697381
 20
-585.0903503636
 10
1505.1543875853
 20
-577.8240601414
 10
1504.0444510742
 20
-570.4643288363
 10
1502.6918350536
 20
-563.024067918
 10
1501.0989124715
 20
-555.5163301322
 10
1499.2684778556
 20
-547.9542866021
 10
1497.20374241
 20
-540.3512037219
 10
1494.9083283824
 20
-532.7204198823
 10
1492.3862627089
 20
-525.0753220711
 10
1489.6419699498
 20
-517.4293223878
 10
1486.680264527
 20
-509.795834514
 10
1483.5063422782
 20
-502.1882501811
 10
1480.1257713417
 20
-494.6199156773
 10
1476.5444823875
 20
-487.104108433
 10
1472.7687582134
 20
-479.654013728
 10
1468.8052227225
 20
-472.2827015599
 10
1464.6608293031
 20
-465.0031037151
 10
1460.3428486293
 20
-457.8279910818
 10
1455.8588559066
 20
-450.7699512458
 10
1451.2167175819
 20
-443.8413664071
 10
1446.4245775431
 20
-437.054391658
 10
1441.4908428324
 20
-430.4209336584
 10
1436.4241688968
 20
-423.9526297478
 10
1431.2334444042
 20
-417.660827529
 10
1425.927775649
 20
-411.5565649612
 10
1420.5164705773
 20
-405.6505509952
 10
1415.0090224568
 20
-399.9531467863
 10
1409.415093223
 20
-394.4743475175
 10
1403.7444965286
 20
-389.2237648644
 10
1398.0071805272
 20
-384.2106101332
 10
1392.2132104204
 20
-379.4436781008
 10
1386.3727508007
 20
-374.9313315857
 10
1380.4960478189
 20
-370.681486777
 10
1374.5934112088
 20
-366.7015993466
 10
1368.6751962009
 20
-362.9986513696
 10
1362.7517853553
 20
-359.5791390748
 10
1356.8335703475
 20
-356.4490614488
 10
1350.9309337374
 20
-353.6139097114
 10
1345.0542307556
 20
-351.0786576821
 10
1339.2137711359
 20
-348.8477530544
 10
1333.4198010291
 20
-346.9251095932
 10
1327.6824850276
 20
-345.3141002684
 10
1322.0118883333
 20
-344.0175513378
 10
1316.4179590995
 20
-343.0377373887
 10
1310.910510979
 20
-342.3763773478
 10
1305.4992059072
 20
-342.0346314653
 10
1300.1935371521
 20
-342.0130992796
 10
1295.0028126595
 20
-342.3118185655
 10
1289.9361387239
 20
-342.9302652679
 10
1285.0024040132
 20
-343.867354421
 10
1280.2102639744
 20
-345.1214420522
 10
1275.5681256497
 20
-346.6903280655
 10
1271.084132927
 20
-348.5712601018
 10
1266.7661522532
 20
-350.7609383671
 10
1262.6217588338
 20
-353.2555214217
 10
1258.6582233429
 20
-356.0506329192
 10
1254.8824991688
 20
-359.1413692844
 10
1251.3012102146
 20
-362.5223083153
 10
1247.9206392781
 20
-366.1875186961
 10
1244.7467170293
 20
-370.1305704023
 10
1241.7850116065
 20
-374.3445459814
 10
1239.0407188474
 20
-378.8220526882
 10
1236.5186531739
 20
-383.5552354546
 10
1234.2232391463
 20
-388.5357906696
 10
1232.1585037007
 20
-393.754980747
 10
1230.3280690847
 20
-399.2036494539
 10
1228.7351465027
 20
-404.8722379739
 10
1227.3825304821
 20
-410.7508016765
 10
1226.272593971
 20
-416.8290275635
 10
1225.4072841753
 20
-423.0962523613
 10
1224.7881191423
 20
-429.5414812279
 10
1224.4161850979
 20
-436.1534070418
 10
1224.2921345408
 20
-442.9204302383
 10
1224.4161850979
 20
-449.8306791595
 10
1224.7881191423
 20
-456.8720308804
 10
1225.4072841753
 20
-464.0321324776
 10
1226.272593971
 20
-471.2984226998
 10
1227.3825304821
 20
-478.6581540049
 10
1228.7351465027
 20
-486.0984149232
 10
1230.3280690847
 20
-493.6061527091
 10
1232.1585037007
 20
-501.1681962391
 10
1234.2232391463
 20
-508.7712791193
 10
1236.5186531739
 20
-516.4020629589
 10
1239.0407188474
 20
-524.0471607701
 10
1241.7850116065
 20
-531.6931604534
 10
1244.7467170293
 20
-539.3266483272
 10
1247.9206392781
 20
-546.9342326601
 10
1251.3012102146
 20
-554.5025671639
 10
1254.8824991688
 20
-562.0183744082
 10
1258.6582233429
 20
-569.4684691132
 10
1262.6217588338
 20
-576.8397812813
 10
1266.7661522532
 20
-584.1193791261
 10
1271.084132927
 20
-591.2944917594
 10
1275.5681256497
 20
-598.3525315955
 10
1280.2102639744
 20
-605.2811164341
 10
1285.0024040132
 20
-612.0680911832
 10
1289.9361387239
 20
-618.7015491828
 10
1295.0028126595
 20
-625.1698530934
 10
1300.1935371521
 20
-631.4616553122
 10
1305.4992059073
 20
-637.56591788
 10
1310.910510979
 20
-643.471931846
 10
1316.4179590995
 20
-649.1693360549
 10
1322.0118883333
 20
-654.6481353237
 10
1327.6824850276
 20
-659.8987179768
 10
1333.4198010291
 20
-664.911872708
 10
1339.2137711359
 20
-669.6788047404
 10
1345.0542307556
 20
-674.1911512555
 10
1350.9309337374
 20
-678.4409960642
 10
1356.8335703475
 20
-682.4208834946
 10
1362.7517853553
 20
-686.1238314717
 10
1368.6751962009
 20
-689.5433437665
 10
1374.5934112088
 20
-692.6734213924
 10
1380.4960478189
 20
-695.5085731298
 10
1386.3727508007
 20
-698.0438251591
 10
1392.2132104204
 20
-700.2747297868
 10
1398.0071805272
 20
-702.197373248
 10
1403.7444965287
 20
-703.8083825728
 10
1409.415093223
 20
-705.1049315035
 10
1415.0090224568
 20
-706.0847454525
 10
1420.5164705773
 20
-706.7461054935
 10
1425.927775649
 20
-707.0878513759
 10
1431.2334444042
 20
-707.1093835616
 10
1436.4241688968
 20
-706.8106642757
 10
1441.4908428324
 20
-706.1922175733
 10
1446.4245775431
 20
-705.2551284202
 10
1451.2167175819
 20
-704.001040789
 10
1455.8588559066
 20
-702.4321547757
 10
1460.3428486293
 20
-700.5512227394
 10
1464.6608293031
 20
-698.3615444741
 10
1468.8052227225
 20
-695.8669614195
 10
1472.7687582134
 20
-693.071849922
 10
1476.5444823875
 20
-689.9811135568
 10
1480.1257713417
 20
-686.6001745259
 10
1483.5063422782
 20
-682.9349641451
 10
1486.680264527
 20
-678.9919124389
 10
1489.6419699498
 20
-674.7779368598
 10
1492.3862627089
 20
-670.300430153
 10
1494.9083283824
 20
-665.5672473866
 10
1497.20374241
 20
-660.5866921716
 10
1499.2684778556
 20
-655.3675020942
 10
1501.0989124715
 20
-649.9188333873
 10
1502.6918350536
 20
-644.2502448673
 10
1504.0444510742
 20
-638.3716811647
 10
1505.1543875853
 20
-632.2934552777
 10
1506.019697381
 20
-626.0262304799
 10
1506.638862414
 20
-619.5810016134
 10
1507.0107964584
 20
-612.9690757995
 10
1507.1348470155
 20
-606.2020526029
  0
ELLIPSE
  5
AB
330
1F
100
AcDbEntity
  8
0
  6
Continuous
 62
     7
370
    25
100
AcDbEllipse
 10
1055.2936138372
 20
-703.7628219657
 30
0.0
 11
282.842712474619
 21
3.410605131648481E-13
 31
0.0
210
0.0
220
0.0
230
1.0
 40
0.5773815452
 41
4.712388980384697
 42
5.49770587972005
  0
LINE
  5
AC
330
1F
100
AcDbEntity
  8
0
  6
Continuous
 62
     7
370
    25
100
AcDbLine
 10
1055.2936138372
 20
-472.8289697461
 30
0.0
 11
1055.2936138372
 21
-867.0709843428
 31
0.0
  0
LWPOLYLINE
  5
AD
330
1F
100
AcDbEntity
  8
0
  6
Continuous
 62
     7
370
    25
100
AcDbPolyline
 90
      142
 70
   128
 43
0.0
 10
869.8902158101
 20
-452.7989683914
 10
869.7664624605
 20
-446.4576166655
 10
869.3954481124
 20
-440.2717376826
 10
868.7779093805
 20
-434.2536129328
 10
867.9150723308
 20
-428.4151908459
 10
866.8086500463
 20
-422.7680630683
 10
865.4608392262
 20
-417.3234414496
 10
863.8743158239
 20
-412.092135782
 10
862.052229735
 20
-407.0845323388
 10
859.9981985426
 20
-402.3105732529
 10
857.7163003356
 20
-397.7797367783
 10
855.2110656116
 20
-393.5010184714
 10
852.4874682823
 20
-389.4829133313
 10
849.550915798
 20
-385.7333989339
 10
846.407238412
 20
-382.259919593
 10
843.0626776046
 20
-379.0693715801
 10
839.5238736917
 20
-376.1680894332
 10
835.7978526411
 20
-373.5618333792
 10
831.8920121224
 20
-371.2557778985
 10
827.8141068207
 20
-369.2545014506
 10
823.5722330393
 20
-367.5619773848
 10
819.174812626
 20
-366.1815660508
 10
814.630576252
 20
-365.1160081277
 10
809.9485460781
 20
-364.3674191819
 10
805.1380178416
 20
-363.9372854677
 10
800.2085424012
 20
-363.8264609757
 10
795.169906774
 20
-364.0351657375
 10
790.0321147046
 20
-364.5629853894
 10
784.8053668038
 20
-365.4088719941
 10
779.5000402955
 20
-366.5711461222
 10
774.1266684145
 20
-368.0475001859
 10
768.6959194933
 20
-369.8350030209
 10
763.2185757812
 20
-371.9301057058
 10
757.7055120371
 20
-374.3286486081
 10
752.1676739387
 20
-377.0258696429
 10
746.616056351
 20
-380.0164137276
 10
741.0616814969
 20
-383.2943434137
 10
735.5155770734
 20
-386.8531506751
 10
729.9887543575
 20
-390.6857698295
 10
724.4921863442
 20
-394.7845915664
 10
719.0367859605
 20
-399.1414780545
 10
713.6333843987
 20
-403.747779099
 10
708.2927096127
 20
-408.5943493157
 10
703.0253650177
 20
-413.6715662879
 10
697.841808439
 20
-418.9693496713
 10
692.7523313482
 20
-424.4771812075
 10
687.7670384311
 20
-430.1841256066
 10
682.8958275254
 20
-436.078852259
 10
678.1483699692
 20
-442.1496577303
 10
673.5340914002
 20
-448.3844889984
 10
669.0621530414
 20
-454.7709673829
 10
664.7414335124
 20
-461.296413122
 10
660.5805112019
 20
-467.9478705474
 10
656.587647236
 20
-474.7121338059
 10
652.7707690764
 20
-481.575773079
 10
649.1374547816
 20
-488.5251612463
 10
645.6949179607
 20
-495.5465009407
 10
642.4499934518
 20
-502.6258519424
 10
639.4091237524
 20
-509.7491588551
 10
636.5783462275
 20
-516.9022790124
 10
633.9632811241
 20
-524.0710105562
 10
631.5691204118
 20
-531.2411206338
 10
629.4006174751
 20
-538.3983736551
 10
627.4620776758
 20
-545.5285595569
 10
625.7573498053
 20
-552.6175220151
 10
624.2898184429
 20
-559.6511865509
 10
623.0623972364
 20
-566.6155884743
 10
622.0775231169
 20
-573.4969006101
 10
621.3371514609
 20
-580.28146075
 10
620.8427522076
 20
-586.9557987778
 10
620.5953069412
 20
-593.5066634131
 10
620.5953069412
 20
-599.9210485207
 10
620.8427522076
 20
-606.1862189326
 10
621.3371514609
 20
-612.2897357329
 10
622.0775231169
 20
-618.2194809539
 10
623.0623972364
 20
-623.9636816354
 10
624.2898184429
 20
-629.5109331988
 10
625.7573498053
 20
-634.8502220893
 10
627.4620776758
 20
-639.9709476433
 10
629.4006174751
 20
-644.8629431341
 10
631.5691204118
 20
-649.5164959575
 10
633.9632811241
 20
-653.9223669151
 10
636.5783462275
 20
-658.0718085579
 10
639.4091237524
 20
-661.9565825537
 10
642.4499934518
 20
-665.5689760433
 10
645.6949179607
 20
-668.9018169537
 10
649.1374547816
 20
-671.948488238
 10
652.7707690764
 20
-674.7029410121
 10
656.587647236
 20
-677.1597065652
 10
660.5805112019
 20
-679.3139072166
 10
664.7414335124
 20
-681.1612660004
 10
669.0621530414
 20
-682.6981151566
 10
673.5340914002
 20
-683.9214034135
 10
678.1483699692
 20
-684.8287020456
 10
682.8958275254
 20
-685.4182096953
 10
687.7670384311
 20
-685.6887559499
 10
692.7523313482
 20
-685.6398036647
 10
697.841808439
 20
-685.27145003
 10
703.0253650177
 20
-684.5844263778
 10
708.2927096127
 20
-683.58009673
 10
713.6333843987
 20
-682.2604550902
 10
719.0367859605
 20
-680.6281214846
 10
724.4921863442
 20
-678.6863367607
 10
729.9887543575
 20
-676.438956152
 10
735.5155770734
 20
-673.890441625
 10
741.0616814969
 20
-671.0458530192
 10
746.616056351
 20
-667.910838002
 10
752.1676739387
 20
-664.4916208555
 10
757.7055120371
 20
-660.794990119
 10
763.2185757812
 20
-656.8282851104
 10
768.6959194933
 20
-652.5993813556
 10
774.1266684145
 20
-648.1166749513
 10
779.5000402955
 20
-643.3890658963
 10
784.8053668038
 20
-638.4259404207
 10
790.0321147046
 20
-633.2371523508
 10
795.169906774
 20
-627.8330035449
 10
800.2085424012
 20
-622.2242234402
 10
805.1380178416
 20
-616.4219477506
 10
809.9485460781
 20
-610.4376963573
 10
814.630576252
 20
-604.2833504375
 10
819.174812626
 20
-597.9711288753
 10
823.5722330393
 20
-591.5135640024
 10
827.8141068207
 20
-584.9234767161
 10
831.8920121224
 20
-578.2139510248
 10
835.7978526411
 20
-571.3983080705
 10
839.5238736917
 20
-564.4900796815
 10
843.0626776046
 20
-557.5029815058
 10
846.407238412
 20
-550.4508857801
 10
849.550915798
 20
-543.3477937877
 10
852.4874682823
 20
-536.2078080601
 10
855.2110656116
 20
-529.0451043783
 10
857.7163003356
 20
-521.8739036273
 10
859.9981985426
 20
-514.7084435624
 10
862.052229735
 20
-507.5629505414
 10
863.8743158239
 20
-500.4516112791
 10
865.4608392262
 20
-493.3885446814
 10
866.8086500463
 20
-486.3877738133
 10
867.9150723308
 20
-479.4631980574
 10
868.7779093805
 20
-472.6285655177
 10
869.3954481124
 20
-465.8974457247
 10
869.7664624605
 20
-459.2832026935
 10
869.8902158101
 20
-452.7989683914
  0
LWPOLYLINE
  5
AE
330
1F
100
AcDbEntity
  8
0
  6
Continuous
 62
     7
370
    25
100
AcDbPolyline
 90
      151
 70
   128
 43
0.0
 10
886.6486465243
 20
-443.1245322663
 10
886.5245959672
 20
-436.3575090697
 10
886.1526619228
 20
-429.7455832558
 10
885.5334968898
 20
-423.3003543892
 10
884.6681870941
 20
-417.0331295915
 10
883.558250583
 20
-410.9549037045
 10
882.2056345624
 20
-405.0763400019
 10
880.6127119804
 20
-399.4077514819
 10
878.7822773644
 20
-393.959082775
 10
876.7175419188
 20
-388.7398926976
 10
874.4221278912
 20
-383.7593374826
 10
871.9000622177
 20
-379.0261547162
 10
869.1557694586
 20
-374.5486480093
 10
866.1940640358
 20
-370.3346724303
 10
863.020141787
 20
-366.3916207241
 10
859.6395708505
 20
-362.7264103433
 10
856.0582818963
 20
-359.3454713123
 10
852.2825577222
 20
-356.2547349472
 10
848.3190222313
 20
-353.4596234496
 10
844.1746288119
 20
-350.965040395
 10
839.8566481381
 20
-348.7753621297
 10
835.3726554154
 20
-346.8944300935
 10
830.7305170907
 20
-345.3255440802
 10
825.9383770519
 20
-344.071456449
 10
821.0046423412
 20
-343.1343672958
 10
815.9379684056
 20
-342.5159205935
 10
810.747243913
 20
-342.2172013075
 10
805.4415751578
 20
-342.2387334932
 10
800.0302700861
 20
-342.5804793757
 10
794.5228219656
 20
-343.2418394166
 10
788.9288927318
 20
-344.2216533657
 10
783.2582960375
 20
-345.5182022964
 10
777.520980036
 20
-347.1292116212
 10
771.7270099292
 20
-349.0518550824
 10
765.8865503095
 20
-351.28275971
 10
760.0098473277
 20
-353.8180117393
 10
754.1072107176
 20
-356.6531634767
 10
748.1889957097
 20
-359.7832411027
 10
742.2655848642
 20
-363.2027533975
 10
736.3473698563
 20
-366.9057013746
 10
730.4447332462
 20
-370.8855888049
 10
724.5680302644
 20
-375.1354336136
 10
718.7275706447
 20
-379.6477801287
 10
712.9336005379
 20
-384.4147121612
 10
707.1962845364
 20
-389.4278668924
 10
701.5256878421
 20
-394.6784495455
 10
695.9317586083
 20
-400.1572488143
 10
690.4243104878
 20
-405.8546530232
 10
685.0130054161
 20
-411.7606669892
 10
679.7073366609
 20
-417.864929557
 10
674.5166121683
 20
-424.1567317757
 10
669.4499382327
 20
-430.6250356864
 10
664.516203522
 20
-437.258493686
 10
659.7240634832
 20
-444.0454684351
 10
655.0819251585
 20
-450.9740532737
 10
650.5979324358
 20
-458.0320931098
 10
646.279951762
 20
-465.2072057431
 10
642.1355583426
 20
-472.4868035879
 10
638.1720228517
 20
-479.8581157559
 10
634.3962986776
 20
-487.308210461
 10
630.8150097234
 20
-494.8240177053
 10
627.4344387869
 20
-502.3923522091
 10
624.2605165381
 20
-509.9999365419
 10
621.2988111153
 20
-517.6334244158
 10
618.5545183562
 20
-525.2794240991
 10
616.0324526827
 20
-532.9245219102
 10
613.7370386551
 20
-540.5553057498
 10
611.6723032095
 20
-548.1583886301
 10
609.8418685935
 20
-555.7204321601
 10
608.2489460115
 20
-563.2281699459
 10
606.8963299909
 20
-570.6684308643
 10
605.7863934798
 20
-578.0281621694
 10
604.9210836841
 20
-585.2944523916
 10
604.3019186511
 20
-592.4545539887
 10
603.9299846067
 20
-599.4959057097
 10
603.8059340496
 20
-606.4061546308
 10
603.9299846067
 20
-613.1731778274
 10
604.3019186511
 20
-619.7851036413
 10
604.9210836841
 20
-626.2303325079
 10
605.7863934798
 20
-632.4975573057
 10
606.8963299909
 20
-638.5757831926
 10
608.2489460115
 20
-644.4543468953
 10
609.8418685935
 20
-650.1229354153
 10
611.6723032095
 20
-655.5716041221
 10
613.7370386551
 20
-660.7907941995
 10
616.0324526827
 20
-665.7713494145
 10
618.5545183562
 20
-670.5045321809
 10
621.2988111153
 20
-674.9820388878
 10
624.2605165381
 20
-679.1960144668
 10
627.4344387869
 20
-683.1390661731
 10
630.8150097234
 20
-686.8042765538
 10
634.3962986776
 20
-690.1852155848
 10
638.1720228517
 20
-693.2759519499
 10
642.1355583426
 20
-696.0710634475
 10
646.279951762
 20
-698.5656465021
 10
650.5979324358
 20
-700.7553247674
 10
655.0819251585
 20
-702.6362568037
 10
659.7240634832
 20
-704.205142817
 10
664.516203522
 20
-705.4592304481
 10
669.4499382327
 20
-706.3963196013
 10
674.5166121683
 20
-707.0147663037
 10
679.7073366609
 20
-707.3134855896
 10
685.0130054161
 20
-707.2919534039
 10
690.4243104878
 20
-706.9502075214
 10
695.9317586083
 20
-706.2888474805
 10
701.5256878421
 20
-705.3090335314
 10
707.1962845364
 20
-704.0124846008
 10
712.9336005379
 20
-702.401475276
 10
718.7275706447
 20
-700.4788318147
 10
724.5680302644
 20
-698.2479271871
 10
730.4447332462
 20
-695.7126751578
 10
736.3473698563
 20
-692.8775234204
 10
742.2655848642
 20
-689.7474457944
 10
748.1889957097
 20
-686.3279334996
 10
754.1072107176
 20
-682.6249855225
 10
760.0098473277
 20
-678.6450980922
 10
765.8865503095
 20
-674.3952532835
 10
771.7270099292
 20
-669.8829067684
 10
777.520980036
 20
-665.1159747359
 10
783.2582960375
 20
-660.1028200047
 10
788.9288927318
 20
-654.8522373517
 10
794.5228219656
 20
-649.3734380829
 10
800.0302700861
 20
-643.676033874
 10
805.4415751578
 20
-637.7700199079
 10
810.747243913
 20
-631.6657573401
 10
815.9379684056
 20
-625.3739551214
 10
821.0046423412
 20
-618.9056512107
 10
825.9383770519
 20
-612.2721932112
 10
830.7305170907
 20
-605.4852184621
 10
835.3726554154
 20
-598.5566336234
 10
839.8566481381
 20
-591.4985937873
 10
844.1746288119
 20
-584.3234811541
 10
848.3190222313
 20
-577.0438833093
 10
852.2825577222
 20
-569.6725711412
 10
856.0582818963
 20
-562.2224764361
 10
859.6395708505
 20
-554.7066691918
 10
863.020141787
 20
-547.138334688
 10
866.1940640358
 20
-539.5307503552
 10
869.1557694586
 20
-531.8972624813
 10
871.9000622177
 20
-524.251262798
 10
874.4221278912
 20
-516.6061649869
 10
876.7175419188
 20
-508.9753811473
 10
878.7822773644
 20
-501.372298267
 10
880.6127119804
 20
-493.810254737
 10
882.2056345624
 20
-486.3025169512
 10
883.558250583
 20
-478.8622560328
 10
884.6681870941
 20
-471.5025247278
 10
885.5334968898
 20
-464.2362345056
 10
886.1526619228
 20
-457.0761329084
 10
886.5245959672
 20
-450.0347811874
 10
886.6486465243
 20
-443.1245322663
  0
LWPOLYLINE
  5
AF
330
1F
100
AcDbEntity
  8
0
  6
Continuous
 62
     7
370
    25
100
AcDbPolyline
 90
       20
 70
   128
 43
0.0
 10
1506.7812936249
 20
-801.1194893005
 10
1506.6572430678
 20
-794.352466104
 10
1506.2853090234
 20
-787.7405402901
 10
1505.6661439904
 20
-781.2953114235
 10
1504.8008341947
 20
-775.0280866257
 10
1503.6908976836
 20
-768.9498607387
 10
1502.338281663
 20
-763.0712970361
 10
1500.745359081
 20
-757.4027085161
 10
1498.914924465
 20
-751.9540398092
 10
1496.8501890194
 20
-746.7348497319
 10
1494.5547749918
 20
-741.7542945168
 10
1492.0327093183
 20
-737.0211117504
 10
1489.2884165592
 20
-732.5436050436
 10
1486.3267111364
 20
-728.3296294645
 10
1483.1527888876
 20
-724.3865777583
 10
1479.7722179511
 20
-720.7213673775
 10
1476.1909289969
 20
-717.3404283466
 10
1472.4152048228
 20
-714.2496919814
 10
1468.4516693319
 20
-711.4545804839
 10
1465.3518106512
 20
-709.5505280067
  0
LWPOLYLINE
  5
B0
330
1F
100
AcDbEntity
  8
0
  6
Continuous
 62
     7
370
    25
100
AcDbPolyline
 90
       58
 70
   128
 43
0.0
 10
1265.3680641239
 20
-1055.970072959
 10
1266.4125988626
 20
-1056.5606035363
 10
1270.7305795364
 20
-1058.7502818016
 10
1275.2145722591
 20
-1060.6312138379
 10
1279.8567105838
 20
-1062.2000998512
 10
1284.6488506226
 20
-1063.4541874824
 10
1289.5825853333
 20
-1064.3912766355
 10
1294.6492592689
 20
-1065.0097233379
 10
1299.8399837615
 20
-1065.3084426238
 10
1305.1456525167
 20
-1065.2869104382
 10
1310.5569575884
 20
-1064.9451645557
 10
1316.0644057089
 20
-1064.2838045148
 10
1321.6583349427
 20
-1063.3039905657
 10
1327.328931637
 20
-1062.007441635
 10
1333.0662476385
 20
-1060.3964323102
 10
1338.8602177453
 20
-1058.473788849
 10
1344.700677365
 20
-1056.2428842214
 10
1350.5773803468
 20
-1053.7076321921
 10
1356.4800169569
 20
-1050.8724804546
 10
1362.3982319648
 20
-1047.7424028287
 10
1368.3216428103
 20
-1044.3228905339
 10
1374.2398578182
 20
-1040.6199425568
 10
1380.1424944283
 20
-1036.6400551264
 10
1386.0191974101
 20
-1032.3902103178
 10
1391.8596570298
 20
-1027.8778638026
 10
1397.6536271366
 20
-1023.1109317702
 10
1403.3909431381
 20
-1018.097777039
 10
1409.0615398324
 20
-1012.8471943859
 10
1414.6554690662
 20
-1007.3683951171
 10
1420.1629171867
 20
-1001.6709909082
 10
1425.5742222584
 20
-995.7649769422
 10
1430.8798910136
 20
-989.6607143744
 10
1436.0706155062
 20
-983.3689121556
 10
1441.1372894418
 20
-976.900608245
 10
1446.0710241525
 20
-970.2671502454
 10
1450.8631641913
 20
-963.4801754963
 10
1455.505302516
 20
-956.5515906577
 10
1459.9892952387
 20
-949.4935508216
 10
1464.3072759125
 20
-942.3184381883
 10
1468.4516693319
 20
-935.0388403435
 10
1472.4152048228
 20
-927.6675281754
 10
1476.1909289969
 20
-920.2174334704
 10
1479.7722179511
 20
-912.7016262261
 10
1483.1527888876
 20
-905.1332917223
 10
1486.3267111364
 20
-897.5257073894
 10
1489.2884165592
 20
-889.8922195156
 10
1492.0327093183
 20
-882.2462198323
 10
1494.5547749918
 20
-874.6011220212
 10
1496.8501890194
 20
-866.9703381815
 10
1498.914924465
 20
-859.3672553013
 10
1500.745359081
 20
-851.8052117713
 10
1502.338281663
 20
-844.2974739855
 10
1503.6908976836
 20
-836.8572130671
 10
1504.8008341947
 20
-829.497481762
 10
1505.6661439904
 20
-822.2311915398
 10
1506.2853090234
 20
-815.0710899426
 10
1506.6572430678
 20
-808.0297382217
 10
1506.7812936249
 20
-801.1194893005
  0
LINE
  5
B1
330
1F
100
AcDbEntity
  8
0
  6
Continuous
 62
     7
370
    25
100
AcDbLine
 10
-849.4343549278
 20
306.4482870644
 30
0.0
 11
-1287.9343549278
 21
306.4482870644
 31
0.0
  0
LINE
  5
B2
330
1F
100
AcDbEntity
  8
0
  6
Continuous
 62
     7
370
    25
100
AcDbLine
 10
-410.9343549278
 20
306.4482870644
 30
0.0
 11
-849.4343549278
 21
306.4482870644
 31
0.0
  0
LINE
  5
B3
330
1F
100
AcDbEntity
  8
0
  6
Continuous
 62
     7
370
    25
100
AcDbLine
 10
-849.4343549278
 20
-93.5517129356
 30
0.0
 11
-410.9343549278
 21
-93.5517129356
 31
0.0
  0
LINE
  5
B4
330
1F
100
AcDbEntity
  8
0
  6
Continuous
 62
     7
370
    25
100
AcDbLine
 10
-1287.9343549278
 20
-93.5517129356
 30
0.0
 11
-849.4343549278
 21
-93.5517129356
 31
0.0
  0
CIRCLE
  5
B5
330
1F
100
AcDbEntity
  8
0
  6
Continuous
 62
     7
370
    25
100
AcDbCircle
 10
-849.4343549278
 20
106.4482870644
 30
0.0
 40
176.3000000000001
  0
CIRCLE
  5
B6
330
1F
100
AcDbEntity
  8
0
  6
Continuous
 62
     7
370
    25
100
AcDbCircle
 10
-849.4343549278
 20
106.4482870644
 30
0.0
 40
200.0000000000001
  0
LINE
  5
B7
330
1F
100
AcDbEntity
  8
0
  6
Continuous
 62
     7
370
    25
100
AcDbLine
 10
-1287.9343549278
 20
106.4482870644
 30
0.0
 11
-1287.9343549278
 21
306.4482870644
 31
0.0
  0
LINE
  5
B8
330
1F
100
AcDbEntity
  8
0
  6
Continuous
 62
     7
370
    25
100
AcDbLine
 10
-1287.9343549278
 20
-93.5517129356
 30
0.0
 11
-1287.9343549278
 21
106.4482870644
 31
0.0
  0
LINE
  5
B9
330
1F
100
AcDbEntity
  8
0
  6
Continuous
 62
     7
370
    25
100
AcDbLine
 10
-410.9343549278
 20
106.4482870644
 30
0.0
 11
-410.9343549278
 21
306.4482870644
 31
0.0
  0
LINE
  5
BA
330
1F
100
AcDbEntity
  8
0
  6
Continuous
 62
     7
370
    25
100
AcDbLine
 10
-410.9343549278
 20
-93.5517129356
 30
0.0
 11
-410.9343549278
 21
106.4482870644
 31
0.0
  0
INSERT
  5
C6
330
1F
100
AcDbEntity
  8
FORMAT
100
AcDbBlockReference
  2
SW_CENTERMARKSYMBOL_1
 10
-849.4343549278
 20
106.4482870644
 30
0.0
  0
LINE
  5
C7
330
1F
100
AcDbEntity
  8
0
  6
Continuous
 62
     7
370
    25
100
AcDbLine
 10
-207.3585964356
 20
-283.7349671374
 30
0.0
 11
-207.3585964356
 21
-1160.7349671374
 31
0.0
  0
LINE
  5
C8
330
1F
100
AcDbEntity
  8
0
  6
Continuous
 62
     7
370
    25
100
AcDbLine
 10
192.6414035644
 20
-522.2349671374
 30
0.0
 11
192.6414035644
 21
-283.7349671374
 31
0.0
  0
LINE
  5
C9
330
1F
100
AcDbEntity
  8
0
  6
Continuous
 62
     7
370
    25
100
AcDbLine
 10
192.6414035644
 20
-1160.7349671374
 30
0.0
 11
192.6414035644
 21
-922.2349671374
 31
0.0
  0
LINE
  5
CA
330
1F
100
AcDbEntity
  8
0
  6
Continuous
 62
     7
370
    25
100
AcDbLine
 10
192.6414035644
 20
-922.2349671374
 30
0.0
 11
431.6414035644
 21
-922.2349671374
 31
0.0
  0
LINE
  5
CB
330
1F
100
AcDbEntity
  8
0
  6
Continuous
 62
     7
370
    25
100
AcDbLine
 10
431.6414035644
 20
-522.2349671374
 30
0.0
 11
192.6414035644
 21
-522.2349671374
 31
0.0
  0
LINE
  5
CC
330
1F
100
AcDbEntity
  8
0
  6
Continuous
 62
     7
370
    25
100
AcDbLine
 10
-7.3585964356
 20
-722.2349671374
 30
0.0
 11
192.6414035644
 21
-922.2349671374
 31
0.0
  0
LINE
  5
CD
330
1F
100
AcDbEntity
  8
0
  6
Continuous
 62
     7
370
    25
100
AcDbLine
 10
192.6414035644
 20
-522.2349671374
 30
0.0
 11
-7.3585964356
 21
-722.2349671374
 31
0.0
  0
LINE
  5
CE
330
1F
100
AcDbEntity
  8
0
  6
Continuous
 62
     7
370
    25
100
AcDbLine
 10
192.6414035644
 20
-1160.7349671374
 30
0.0
 11
-207.3585964356
 21
-1160.7349671374
 31
0.0
  0
LINE
  5
CF
330
1F
100
AcDbEntity
  8
0
  6
Continuous
 62
     7
370
    25
100
AcDbLine
 10
192.6414035644
 20
-283.7349671374
 30
0.0
 11
-207.3585964356
 21
-283.7349671374
 31
0.0
  0
LINE
  5
D0
330
1F
100
AcDbEntity
  8
0
  6
Continuous
 62
     7
370
    25
100
AcDbLine
 10
431.6414035644
 20
-522.2349671374
 30
0.0
 11
431.6414035644
 21
-922.2349671374
 31
0.0
  0
ENDSEC
  0
SECTION
  2
OBJECTS
  0
DICTIONARY
  5
C
330
0
100
AcDbDictionary
281
     1
  3
ACAD_GROUP
350
D
  3
ACAD_LAYOUT
350
1A
  3
ACAD_MLINESTYLE
350
17
  3
ACAD_PLOTSETTINGS
350
19
  3
ACAD_PLOTSTYLENAME
350
E
  3
ACAD_SCALELIST
350
47
  3
DWGPROPS
350
D1
  0
DICTIONARY
  5
D
102
{ACAD_REACTORS
330
C
102
}
330
C
100
AcDbDictionary
281
     1
  0
DICTIONARY
  5
1A
102
{ACAD_REACTORS
330
C
102
}
330
C
100
AcDbDictionary
281
     1
  3
Layout1
350
1E
  3
Layout2
350
26
  3
Model
350
22
  0
DICTIONARY
  5
17
102
{ACAD_REACTORS
330
C
102
}
330
C
100
AcDbDictionary
281
     1
  3
Standard
350
18
  0
DICTIONARY
  5
19
102
{ACAD_REACTORS
330
C
102
}
330
C
100
AcDbDictionary
281
     1
  0
ACDBDICTIONARYWDFLT
  5
E
102
{ACAD_REACTORS
330
C
102
}
330
C
100
AcDbDictionary
281
     1
  3
Normal
350
F
100
AcDbDictionaryWithDefault
340
F
  0
DICTIONARY
  5
47
102
{ACAD_REACTORS
330
C
102
}
330
C
100
AcDbDictionary
281
     1
  3
A0
350
48
  3
A1
350
49
  3
A2
350
4A
  3
A3
350
4B
  3
A4
350
4C
  3
A5
350
4D
  3
A6
350
4E
  3
A7
350
4F
  3
A8
350
50
  3
A9
350
51
  3
B0
350
52
  3
B1
350
53
  3
B2
350
54
  3
B3
350
55
  3
B4
350
56
  3
B5
350
57
  3
B6
350
58
  3
B7
350
59
  3
B8
350
5A
  3
B9
350
5B
  3
C0
350
5C
  3
C1
350
5D
  3
C2
350
5E
  3
C3
350
5F
  3
C4
350
60
  3
C5
350
61
  3
C6
350
62
  3
C7
350
63
  3
C8
350
64
  3
C9
350
65
  3
D0
350
66
  3
D1
350
67
  3
D2
350
68
  0
XRECORD
  5
D1
102
{ACAD_REACTORS
330
C
102
}
330
C
100
AcDbXrecord
280
     1
  1
DWGPROPS COOKIE
  2

  3

  4

  6

  7

  8
b.kav
  9

300
=
301
=
302
=
303
=
304
=
305
=
306
=
307
=
308
=
309
=
 40
0.0
 41
2459935.575611956
 42
2459935.575612141
  1

 90
        0
  0
LAYOUT
  5
1E
102
{ACAD_REACTORS
330
1A
102
}
330
1A
100
AcDbPlotSettings
  1

  2
none_device
  4

  6

 40
0.0
 41
0.0
 42
0.0
 43
0.0
 44
0.0
 45
0.0
 46
0.0
 47
0.0
 48
0.0
 49
0.0
140
0.0
141
0.0
142
1.0
143
1.0
 70
   688
 72
     1
 73
     0
 74
     5
  7

 75
    16
147
1.0
148
0.0
149
0.0
100
AcDbLayout
  1
Layout1
 70
     1
 71
     1
 10
0.0
 20
0.0
 11
420.0
 21
297.0
 12
0.0
 22
0.0
 32
0.0
 14
1.0000000000E+20
 24
1.0000000000E+20
 34
1.0000000000E+20
 15
-1.0000000000E+20
 25
-1.0000000000E+20
 35
-1.0000000000E+20
146
0.0
 13
0.0
 23
0.0
 33
0.0
 16
1.0
 26
0.0
 36
0.0
 17
0.0
 27
1.0
 37
0.0
 76
     0
330
1B
  0
LAYOUT
  5
26
102
{ACAD_REACTORS
330
1A
102
}
330
1A
100
AcDbPlotSettings
  1

  2
none_device
  4

  6

 40
0.0
 41
0.0
 42
0.0
 43
0.0
 44
0.0
 45
0.0
 46
0.0
 47
0.0
 48
0.0
 49
0.0
140
0.0
141
0.0
142
1.0
143
1.0
 70
   688
 72
     1
 73
     0
 74
     5
  7

 75
    16
147
1.0
148
0.0
149
0.0
100
AcDbLayout
  1
Layout2
 70
     1
 71
     2
 10
0.0
 20
0.0
 11
0.0
 21
0.0
 12
0.0
 22
0.0
 32
0.0
 14
0.0
 24
0.0
 34
0.0
 15
0.0
 25
0.0
 35
0.0
146
0.0
 13
0.0
 23
0.0
 33
0.0
 16
1.0
 26
0.0
 36
0.0
 17
0.0
 27
1.0
 37
0.0
 76
     0
330
23
  0
LAYOUT
  5
22
102
{ACAD_REACTORS
330
1A
102
}
330
1A
100
AcDbPlotSettings
  1

  2
none_device
  4
Letter_(8.50_x_11.00_Inches)
  6

 40
6.35
 41
6.35
 42
6.35000508
 43
6.35000508
 44
215.9
 45
279.4
 46
0.0
 47
0.0
 48
0.0
 49
0.0
140
0.0
141
0.0
142
1.0
143
1.0
 70
  1712
 72
     1
 73
     0
 74
     0
  7

 75
     0
147
1.0
148
0.0
149
0.0
100
AcDbLayout
  1
Model
 70
     1
 71
     0
 10
0.0
 20
0.0
 11
279.4
 21
215.9
 12
0.0
 22
0.0
 32
0.0
 14
0.0
 24
0.0
 34
0.0
 15
279.4
 25
215.9
 35
0.0
146
0.0
 13
0.0
 23
0.0
 33
0.0
 16
1.0
 26
0.0
 36
0.0
 17
0.0
 27
1.0
 37
0.0
 76
     0
330
1F
331
29
  0
MLINESTYLE
  5
18
102
{ACAD_REACTORS
330
17
102
}
330
17
100
AcDbMlineStyle
  2
Standard
 70
     0
  3

 62
   256
 51
90.0
 52
90.0
 71
     2
 49
0.5
 62
   256
  6
BYLAYER
 49
-0.5
 62
   256
  6
BYLAYER
  0
ACDBPLACEHOLDER
  5
F
102
{ACAD_REACTORS
330
E
102
}
330
E
  0
SCALE
  5
48
102
{ACAD_REACTORS
330
47
102
}
330
47
100
AcDbScale
 70
     0
300
1:1
140
1.0
141
1.0
290
     1
  0
SCALE
  5
49
102
{ACAD_REACTORS
330
47
102
}
330
47
100
AcDbScale
 70
     0
300
1:2
140
1.0
141
2.0
290
     0
  0
SCALE
  5
4A
102
{ACAD_REACTORS
330
47
102
}
330
47
100
AcDbScale
 70
     0
300
1:4
140
1.0
141
4.0
290
     0
  0
SCALE
  5
4B
102
{ACAD_REACTORS
330
47
102
}
330
47
100
AcDbScale
 70
     0
300
1:5
140
1.0
141
5.0
290
     0
  0
SCALE
  5
4C
102
{ACAD_REACTORS
330
47
102
}
330
47
100
AcDbScale
 70
     0
300
1:8
140
1.0
141
8.0
290
     0
  0
SCALE
  5
4D
102
{ACAD_REACTORS
330
47
102
}
330
47
100
AcDbScale
 70
     0
300
1:10
140
1.0
141
10.0
290
     0
  0
SCALE
  5
4E
102
{ACAD_REACTORS
330
47
102
}
330
47
100
AcDbScale
 70
     0
300
1:16
140
1.0
141
16.0
290
     0
  0
SCALE
  5
4F
102
{ACAD_REACTORS
330
47
102
}
330
47
100
AcDbScale
 70
     0
300
1:20
140
1.0
141
20.0
290
     0
  0
SCALE
  5
50
102
{ACAD_REACTORS
330
47
102
}
330
47
100
AcDbScale
 70
     0
300
1:30
140
1.0
141
30.0
290
     0
  0
SCALE
  5
51
102
{ACAD_REACTORS
330
47
102
}
330
47
100
AcDbScale
 70
     0
300
1:40
140
1.0
141
40.0
290
     0
  0
SCALE
  5
52
102
{ACAD_REACTORS
330
47
102
}
330
47
100
AcDbScale
 70
     0
300
1:50
140
1.0
141
50.0
290
     0
  0
SCALE
  5
53
102
{ACAD_REACTORS
330
47
102
}
330
47
100
AcDbScale
 70
     0
300
1:100
140
1.0
141
100.0
290
     0
  0
SCALE
  5
54
102
{ACAD_REACTORS
330
47
102
}
330
47
100
AcDbScale
 70
     0
300
2:1
140
2.0
141
1.0
290
     0
  0
SCALE
  5
55
102
{ACAD_REACTORS
330
47
102
}
330
47
100
AcDbScale
 70
     0
300
4:1
140
4.0
141
1.0
290
     0
  0
SCALE
  5
56
102
{ACAD_REACTORS
330
47
102
}
330
47
100
AcDbScale
 70
     0
300
8:1
140
8.0
141
1.0
290
     0
  0
SCALE
  5
57
102
{ACAD_REACTORS
330
47
102
}
330
47
100
AcDbScale
 70
     0
300
10:1
140
10.0
141
1.0
290
     0
  0
SCALE
  5
58
102
{ACAD_REACTORS
330
47
102
}
330
47
100
AcDbScale
 70
     0
300
100:1
140
100.0
141
1.0
290
     0
  0
SCALE
  5
59
102
{ACAD_REACTORS
330
47
102
}
330
47
100
AcDbScale
 70
     0
300
1/128" = 1'-0"
140
0.0078125
141
12.0
290
     0
  0
SCALE
  5
5A
102
{ACAD_REACTORS
330
47
102
}
330
47
100
AcDbScale
 70
     0
300
1/64" = 1'-0"
140
0.015625
141
12.0
290
     0
  0
SCALE
  5
5B
102
{ACAD_REACTORS
330
47
102
}
330
47
100
AcDbScale
 70
     0
300
1/32" = 1'-0"
140
0.03125
141
12.0
290
     0
  0
SCALE
  5
5C
102
{ACAD_REACTORS
330
47
102
}
330
47
100
AcDbScale
 70
     0
300
1/16" = 1'-0"
140
0.0625
141
12.0
290
     0
  0
SCALE
  5
5D
102
{ACAD_REACTORS
330
47
102
}
330
47
100
AcDbScale
 70
     0
300
3/32" = 1'-0"
140
0.09375
141
12.0
290
     0
  0
SCALE
  5
5E
102
{ACAD_REACTORS
330
47
102
}
330
47
100
AcDbScale
 70
     0
300
1/8" = 1'-0"
140
0.125
141
12.0
290
     0
  0
SCALE
  5
5F
102
{ACAD_REACTORS
330
47
102
}
330
47
100
AcDbScale
 70
     0
300
3/16" = 1'-0"
140
0.1875
141
12.0
290
     0
  0
SCALE
  5
60
102
{ACAD_REACTORS
330
47
102
}
330
47
100
AcDbScale
 70
     0
300
1/4" = 1'-0"
140
0.25
141
12.0
290
     0
  0
SCALE
  5
61
102
{ACAD_REACTORS
330
47
102
}
330
47
100
AcDbScale
 70
     0
300
3/8" = 1'-0"
140
0.375
141
12.0
290
     0
  0
SCALE
  5
62
102
{ACAD_REACTORS
330
47
102
}
330
47
100
AcDbScale
 70
     0
300
1/2" = 1'-0"
140
0.5
141
12.0
290
     0
  0
SCALE
  5
63
102
{ACAD_REACTORS
330
47
102
}
330
47
100
AcDbScale
 70
     0
300
3/4" = 1'-0"
140
0.75
141
12.0
290
     0
  0
SCALE
  5
64
102
{ACAD_REACTORS
330
47
102
}
330
47
100
AcDbScale
 70
     0
300
1" = 1'-0"
140
1.0
141
12.0
290
     0
  0
SCALE
  5
65
102
{ACAD_REACTORS
330
47
102
}
330
47
100
AcDbScale
 70
     0
300
1-1/2" = 1'-0"
140
1.5
141
12.0
290
     0
  0
SCALE
  5
66
102
{ACAD_REACTORS
330
47
102
}
330
47
100
AcDbScale
 70
     0
300
3" = 1'-0"
140
3.0
141
12.0
290
     0
  0
SCALE
  5
67
102
{ACAD_REACTORS
330
47
102
}
330
47
100
AcDbScale
 70
     0
300
6" = 1'-0"
140
6.0
141
12.0
290
     0
  0
SCALE
  5
68
102
{ACAD_REACTORS
330
47
102
}
330
47
100
AcDbScale
 70
     0
300
1'-0" = 1'-0"
140
12.0
141
12.0
290
     0
  0
ENDSEC
  0
EOF
